воскресенье, 18 сентября 2011 г.

Виктор Цой. Кино. Муравейник. Аккорды,

H|---------------------------------------------------------------------------
G|---------------------------------------------------------------------------
D|-0-2-4-5-4--0--4-2-----0-2-4--2--0----0-2-4-5-4--0--4-2--2-0---0-----------
A|---------------------4-------------2-------------------------4-------------
E|---------------------------------------------------------------------------

  D             A
 Начинается новый день
     Hm          G A
 И машины туда-сюда...
  D                       A
 Раз уж солнцу вставать не лень,
 И для нас, значит, ерунда.
     D        A
 Муравейник живет,
        Hm                G   A
 Кто-то лапку сломал - не в счет,
       D         A
 А до свадьбы заживет,
       Hm         G   A
 А помрет - так помрет...

         G                  A
         Я не люблю, когда мне врут,
               D                Hm
         Но от правды я тоже устал,
             G             A
         Я пытался найти приют,
              D              Hm
         Говорят, что плохо искал.
                 G            A
         И я не знаю, каков процент
               D              Hm
         Сумасшедших на данный час,
                   G            A
         Но, если верить глазам и ушам -
                            D
         Больше в несколько раз...

 И мы могли бы вести войну
 Против тех, кто против нас,
 Так как те, кто против тех, кто против нас,
 Не справляются с ними без нас.
 Наше будущее - туман,
 В нашем прошлом - то ад, то рай,
 Наши деньги не лезут в карман,
 Вот и утро - вставай!

         Я не люблю, когда мне врут,
         Но от правды я тоже устал,
         Я пытался найти приют,
         Говорят, что плохо искал.
         И я не знаю, каков процент
         Сумасшедших на данный час,
         Но, если верить глазам и ушам -
         Больше в несколько раз...



Виктор Цой. Кино. Мама Анархия. Аккорды

Вступление: C (G) | F    > 4 раза

    C
Солдат шел по улице домой
    F    G       C
И увидел этих ребят.
  C
Кто ваша мама, ребята? -
     F       G      C
Спросил у ребят солдат.

         Am      Em               \
        Мама - Анархия,           |  > 2 раза
         F         G              |
        Папа - стакан портвейна.  /

Проигрыш = вступление

Все они в кожаных куртках,
Все небольшого роста,
Хотел солдат пройти мимо,
Но это было не просто.


        Припев

Довольно веселую шутку
Сыграли с солдатом ребята:
Раскрасили красным и синим,
Заставляли ругаться матом.

        Припев

Проигрыш: G | G

        Припев

Виктор Цой. Кино. Видели ночь. Аккорды.

Вступление: C | G | Am | F    > 2 раза

    C
Мы вышли из дома,
    G
Когда во всех окнах
   Am
Погасли огни,
  F
Один за одним,
    C              G
Мы видели, как уезжает
               Am  F
Последний трамвай.

C
Ездят такси,
        G
Но нам нечем платить,
       Am
И нам незачем ехать,
      F
Мы гуляем одни,
    C
На нашем кассетнике
 G                    Am   F
Кончилась пленка, смотай.

         C                           \
        Видели ночь,                 |  > 4 раза
         G                    Am  F  |
        Гуляли всю ночь до утра.     /

Проигрыш = вступление

Зайди в телефонную будку,
Скажи, чтоб закрыли дверь
В квартире твоей,
Сними свою обувь -
Мы будем ходить босиком.

Есть сигареты, спички,
Бутылка вина, и она
Поможет нам ждать,
Поможет поверить,
Что все спят,
И мы здесь вдвоем.

        Припев

Проигрыш = вступление

        Припев

Кода: C | G | Am | F    > 4 раза

среда, 14 сентября 2011 г.

NIRVANA - Smells Like Teen Spirit Текст песни, аккорды и табулатуры.

NIRVANA - Smells Like Teen Spirit Текст песни, аккорды и табулатуры.

INTRO/CHORUS
(Thanks too En-Ming Tham)

e|----------------------------------------|
B|----------------------------------------|
G|-------------3-3-----------------6-6----|
D|-3-3-3-x-x-x-3-3-0-6-6-6-x-x-x-x-6-6-0--|
A|-3-3-3-x-x-x-1-1-0-6-6-6-x-x-x-x-4-4-0--|
E|-1-1-1-x-x-x-----0-4-4-4-x-x-x-x-----0--|

VERSE

e|---1-|
b|-1---|
g|-----|
D|-----|
A|-----|
E|-----|

CHORUS

F Bb G# C#

THEN

e|------------------------------------------|
b|------------------------------------------|
g|-----------------4b-----------------------|
D|---3--2-2-3--4-4-----3--2-2-3--8-8--6-----|
A|---3--2-2-3--4-4-----3--2-2-3--8-8--6-----|
E|---1--0-0-1--2-2-----1--0-0-1--6-6--4-----|

Solo

e|---------------------------------------------------|
b|--1--4--4s6-----4b6b4--2--1--2-1-------------------|
g|-------------1--------------------3--1--3b5b3-1-0--|
D|---------------------------------------------------|
A|---------------------------------------------------|
E|---------------------------------------------------|

e|--------------------------------|
a|--------------------------------|
d|---1-0---1-0---1-0---1p0--------|
g|---------------------------3----|
b|--------------------------------|
E|--------------------------------|

or start higher

e|--------------------------------|
B|--------------------------------|
G|---8-10-8b----------------------|
D|-10-----6--6-5-6-5--------------|
A|------------------8-6-8-8b-6-5--|
E|--------------------------------|


Load up on guns, bring your friends
It's fun to lose, and to pretend
She's overboard, myself assured
I know I know, A dirty word

 chorus:

Hello, hello, hello, hello...hello, hello, hello, hello,
hello, hello, hello, hello...hello, hello, hello, hello

 With the lights out it's less dangerous
 Here we are now, entertain us
 I feel stupid and contagious
 Here we are now, entertain us.
 A mulatto, an albino, a mosquito, my libido, Yea!

I'm worse at what I do best,
and for this gift I feel blessed.
I met a group that's always been
And always will until the end.

  chorus, solo

And I forget, just what the taste
And yes I guess it makes me smile
I found it hard. . .Its hard to find
Oh well, whatever, nevermind

  chorus.
 
---------------------------------------------------------------- 
 Перевод:

Несет как от тинейджера

Заряжайте свои ружья, зовите своих друзей.
Забавно проигровать и притворяться.
Она заскучала и слишком самоуверенна.
О нет, я знаю этот грязный мир.

Привет, привет, привет, что, очень паршиво?

С выключенным светом безопасней.
Вот и мы, развлекай нас.
Я чувствую себя тупицей и заразным.
Вот и мы, развлекайте нас.
Мулатка, альбинос,
Комар, мое либидо.
Да, да

Я что-то истощился в том, что делаю лучше всего,
И я чувствую, что этот дар дан мне свыше.
Наша небольшая команда существовала всегда,
И будет существовать всегда, до самого конца.

И я просто не помню, зачем мне вкус.
О да, кажется это доставляет мне радость.
Я с трудом нашел это, это очень трудно разыскать.
Но что бы не случилось, все-по фигу.

Да, мы в отказе.
Источник






Японский мальчик, музыкальный гений... По другому и не скажешь.... Smells Like Teen Spirit - Sungha Jung .....


Комментарии (Другие)

Статистика

Яндекс.Метрика