четверг, 7 октября 2010 г.

Виктор Цой. Кино. Когда твоя девушка больна. Ааккорды.

Когда твоя девушка больна. Кино. Виктор Цой. Ааккорды.


Вступление:

G   | D G | D G | D   | G   | D

   C               D               G             Em
e|----------------------------------------------------------------|
H|----------------------------------------------------------------|
G|-------------0--------------------------------------------------|
D|-----------------4---2---0--------------------------------------|
A|-----3---3-------------------3---2---------0-2------------------|
E|-----------------------------------------------3----------------|

   C               D               G             Em
e|----------------------------------------------------------------|
H|----------------------------------------------------------------|
G|----------------------------------------------------------------|
D|-------------2---0-----------------------------2----------------|
A|-----3---3-----------3---2---0-------------0-2------------------|
E|---------------------------------3------------------------------|

   C               D               
e|-----0-----0---------2-----2---2-|
H|---1-----1-----1---3-----3---3---|
G|-0-----0-----0---2-----2---------|
D|---------------------------------|
A|---------------------------------|
E|---------------------------------|

G   | D G | D G | D   | G   | D

G          Em           C                D
 День как день, только ты почему-то грустишь.
G               Em C                   D
 И вокруг все поют, только ты один молчишь.
G             Em       C                  D
 Потерял аппетит и не хочешь сходить в кино.
G                Em    C             D
 Ты идешь в магазин, чтобы купить вино.

  C                  D
 Солнце светит и растет трава,
       G            Em 
 Но тебе она не нужна.
   C            D
 Все не так и все не то,

     G                  Em  |
 Когда твоя девушка больна. |
 C     D                    |
 М-м-м-м.                   | > 2 раза.

            G   | D G | D G | D   | G   | D
 Когда больна.

 Ты идешь в магазин, головою поник,
 Как будто иссяк чистый горный родник.
 Она где-то лежит, ест мед и пьет аспирин,
 И вот ты идешь на вечеринку один.

 Солнце светит и растет трава,
 Но тебе она не нужна.
 Все не так и все не то,

 Когда твоя девушка больна. |
 На вечеринку - один,       | > 2 раза.

 Когда твоя девушка больна. |
 М-м-м-м.                   | > 2 раза.

 Когда твоя девушка больна.

Проигрыш:

С   | C   | D   | D

G   | G   | Em  | Em

С   | C   | D   | D

G   | D G | D G | D   | G   | D

Кода:

   C               D               G             Em
e|----------------------------------------------------------------|
H|----------------------------------------------------------------|
G|-------------0--------------------------------------------------|
D|-----------------4---2---0--------------------------------------|
A|-----3---3-------------------3---2---------0-2------------------|
E|-----------------------------------------------3----------------|

   C               D               G             Em
e|----------------------------------------------------------------|
H|----------------------------------------------------------------|
G|----------------------------------------------------------------|
D|-------------2---0-----------------------------2----------------|
A|-----3---3-----------3---2---0-------------0-2------------------|
E|---------------------------------3------------------------------|

   C               D               G             Em
e|----------------------------------------------------------------|
H|----------------------------------------------------------------|
G|-------------0---------------------------------0----------------|
D|-----------------4---2---0-------0-----------0------------------|
A|-----3---3-------------------3-------------2--------------------|
E|----------------------------------------------------------------|

   C               D               G             Em
e|-----0-----0---------2-----2---2-3---------5-7-3----------------|
H|---1-----1-----1---3-----3---3----------------------------------|
G|-0-----0-----0---2-----2----------------------------------------|
D|----------------------------------------------------------------|
A|----------------------------------------------------------------|
E|----------------------------------------------------------------|

источник

Комментарии (Другие)

Статистика

Яндекс.Метрика